  0
SECTION
  2
HEADER
  9
$ACADVER
  1
AC1015
  9
$ACADMAINTVER
 70
    13
  9
$DWGCODEPAGE
  3
ANSI_1254
  9
$INSBASE
 10
0.0
 20
0.0
 30
0.0
  9
$EXTMIN
 10
380.5861140602753
 20
-388.9238798568671
 30
-0.0015258207003583
  9
$EXTMAX
 10
426.2545967910978
 20
-347.3763429154976
 30
0.0000000349246037
  9
$LIMMIN
 10
0.0
 20
0.0
  9
$LIMMAX
 10
420.0
 20
297.0
  9
$ORTHOMODE
 70
     1
  9
$REGENMODE
 70
     1
  9
$FILLMODE
 70
     1
  9
$QTEXTMODE
 70
     0
  9
$MIRRTEXT
 70
     1
  9
$LTSCALE
 40
1.0
  9
$ATTMODE
 70
     1
  9
$TEXTSIZE
 40
2.0
  9
$TRACEWID
 40
10.0
  9
$TEXTSTYLE
  7
STANDARD
  9
$CLAYER
  8
3
  9
$CELTYPE
  6
ByLayer
  9
$CECOLOR
 62
   256
  9
$CELTSCALE
 40
1.0
  9
$DISPSILH
 70
     0
  9
$DIMSCALE
 40
0.0
  9
$DIMASZ
 40
0.2
  9
$DIMEXO
 40
0.0
  9
$DIMDLI
 40
10.0
  9
$DIMRND
 40
0.0
  9
$DIMDLE
 40
1.25
  9
$DIMEXE
 40
0.2
  9
$DIMTP
 40
0.0
  9
$DIMTM
 40
0.0
  9
$DIMTXT
 40
0.4
  9
$DIMCEN
 40
-3.0
  9
$DIMTSZ
 40
0.0
  9
$DIMTOL
 70
     0
  9
$DIMLIM
 70
     0
  9
$DIMTIH
 70
     0
  9
$DIMTOH
 70
     0
  9
$DIMSE1
 70
     0
  9
$DIMSE2
 70
     0
  9
$DIMTAD
 70
     1
  9
$DIMZIN
 70
     0
  9
$DIMBLK
  1

  9
$DIMASO
 70
     1
  9
$DIMSHO
 70
     0
  9
$DIMPOST
  1

  9
$DIMAPOST
  1

  9
$DIMALT
 70
     0
  9
$DIMALTD
 70
     2
  9
$DIMALTF
 40
0.039
  9
$DIMLFAC
 40
1.0
  9
$DIMTOFL
 70
     1
  9
$DIMTVP
 40
0.0
  9
$DIMTIX
 70
     0
  9
$DIMSOXD
 70
     0
  9
$DIMSAH
 70
     0
  9
$DIMBLK1
  1

  9
$DIMBLK2
  1

  9
$DIMSTYLE
  2
Standard
  9
$DIMCLRD
 70
     1
  9
$DIMCLRE
 70
     1
  9
$DIMCLRT
 70
     6
  9
$DIMTFAC
 40
0.7571428571428572
  9
$DIMGAP
 40
0.5
  9
$DIMJUST
 70
     0
  9
$DIMSD1
 70
     0
  9
$DIMSD2
 70
     0
  9
$DIMTOLJ
 70
     1
  9
$DIMTZIN
 70
     0
  9
$DIMALTZ
 70
     0
  9
$DIMALTTZ
 70
     0
  9
$DIMUPT
 70
     1
  9
$DIMDEC
 70
     2
  9
$DIMTDEC
 70
     2
  9
$DIMALTU
 70
     2
  9
$DIMALTTD
 70
     2
  9
$DIMTXSTY
  7
STANDARD
  9
$DIMAUNIT
 70
     0
  9
$DIMADEC
 70
     0
  9
$DIMALTRND
 40
0.0
  9
$DIMAZIN
 70
     0
  9
$DIMDSEP
 70
    46
  9
$DIMATFIT
 70
     1
  9
$DIMFRAC
 70
     0
  9
$DIMLDRBLK
  1

  9
$DIMLUNIT
 70
     2
  9
$DIMLWD
 70
    -2
  9
$DIMLWE
 70
    -2
  9
$DIMTMOVE
 70
     0
  9
$LUNITS
 70
     2
  9
$LUPREC
 70
     2
  9
$SKETCHINC
 40
1.0
  9
$FILLETRAD
 40
0.5
  9
$AUNITS
 70
     0
  9
$AUPREC
 70
     2
  9
$MENU
  1
acad
  9
$ELEVATION
 40
0.0
  9
$PELEVATION
 40
0.0
  9
$THICKNESS
 40
0.0
  9
$LIMCHECK
 70
     0
  9
$CHAMFERA
 40
8.13
  9
$CHAMFERB
 40
8.13
  9
$CHAMFERC
 40
0.0
  9
$CHAMFERD
 40
0.0
  9
$SKPOLY
 70
     0
  9
$TDCREATE
 40
2452213.589300926
  9
$TDUCREATE
 40
2452213.505967593
  9
$TDUPDATE
 40
2454439.482169282
  9
$TDUUPDATE
 40
2454439.398835949
  9
$TDINDWG
 40
0.8478540856
  9
$TDUSRTIMER
 40
0.8478540856
  9
$USRTIMER
 70
     1
  9
$ANGBASE
 50
0.0
  9
$ANGDIR
 70
     0
  9
$PDMODE
 70
     0
  9
$PDSIZE
 40
0.0
  9
$PLINEWID
 40
0.0
  9
$SPLFRAME
 70
     0
  9
$SPLINETYPE
 70
     6
  9
$SPLINESEGS
 70
     8
  9
$HANDSEED
  5
BE
  9
$SURFTAB1
 70
    18
  9
$SURFTAB2
 70
    18
  9
$SURFTYPE
 70
     6
  9
$SURFU
 70
    18
  9
$SURFV
 70
    18
  9
$UCSBASE
  2

  9
$UCSNAME
  2

  9
$UCSORG
 10
0.0
 20
0.0
 30
0.0
  9
$UCSXDIR
 10
1.0
 20
0.0
 30
0.0
  9
$UCSYDIR
 10
0.0
 20
1.0
 30
0.0
  9
$UCSORTHOREF
  2

  9
$UCSORTHOVIEW
 70
     0
  9
$UCSORGTOP
 10
0.0
 20
0.0
 30
0.0
  9
$UCSORGBOTTOM
 10
0.0
 20
0.0
 30
0.0
  9
$UCSORGLEFT
 10
0.0
 20
0.0
 30
0.0
  9
$UCSORGRIGHT
 10
0.0
 20
0.0
 30
0.0
  9
$UCSORGFRONT
 10
0.0
 20
0.0
 30
0.0
  9
$UCSORGBACK
 10
0.0
 20
0.0
 30
0.0
  9
$PUCSBASE
  2

  9
$PUCSNAME
  2

  9
$PUCSORG
 10
0.0
 20
0.0
 30
0.0
  9
$PUCSXDIR
 10
1.0
 20
0.0
 30
0.0
  9
$PUCSYDIR
 10
0.0
 20
1.0
 30
0.0
  9
$PUCSORTHOREF
  2

  9
$PUCSORTHOVIEW
 70
     0
  9
$PUCSORGTOP
 10
0.0
 20
0.0
 30
0.0
  9
$PUCSORGBOTTOM
 10
0.0
 20
0.0
 30
0.0
  9
$PUCSORGLEFT
 10
0.0
 20
0.0
 30
0.0
  9
$PUCSORGRIGHT
 10
0.0
 20
0.0
 30
0.0
  9
$PUCSORGFRONT
 10
0.0
 20
0.0
 30
0.0
  9
$PUCSORGBACK
 10
0.0
 20
0.0
 30
0.0
  9
$USERI1
 70
     0
  9
$USERI2
 70
     0
  9
$USERI3
 70
     0
  9
$USERI4
 70
     0
  9
$USERI5
 70
     0
  9
$USERR1
 40
0.0
  9
$USERR2
 40
0.0
  9
$USERR3
 40
0.0
  9
$USERR4
 40
0.0
  9
$USERR5
 40
0.0
  9
$WORLDVIEW
 70
     1
  9
$SHADEDGE
 70
     3
  9
$SHADEDIF
 70
    70
  9
$TILEMODE
 70
     1
  9
$MAXACTVP
 70
    16
  9
$PINSBASE
 10
0.0
 20
0.0
 30
0.0
  9
$PLIMCHECK
 70
     0
  9
$PEXTMIN
 10
1.000000000000000E+20
 20
1.000000000000000E+20
 30
1.000000000000000E+20
  9
$PEXTMAX
 10
-1.000000000000000E+20
 20
-1.000000000000000E+20
 30
-1.000000000000000E+20
  9
$PLIMMIN
 10
0.0
 20
0.0
  9
$PLIMMAX
 10
420.0
 20
297.0
  9
$UNITMODE
 70
     0
  9
$VISRETAIN
 70
     0
  9
$PLINEGEN
 70
     0
  9
$PSLTSCALE
 70
     1
  9
$TREEDEPTH
 70
  3020
  9
$CMLSTYLE
  2
Standard
  9
$CMLJUST
 70
     0
  9
$CMLSCALE
 40
1.0
  9
$PROXYGRAPHICS
 70
     1
  9
$MEASUREMENT
 70
     0
  9
$CELWEIGHT
370
    -1
  9
$ENDCAPS
280
     0
  9
$JOINSTYLE
280
     0
  9
$LWDISPLAY
290
     0
  9
$INSUNITS
 70
     0
  9
$HYPERLINKBASE
  1

  9
$STYLESHEET
  1

  9
$XEDIT
290
     1
  9
$CEPSNTYPE
380
     0
  9
$PSTYLEMODE
290
     1
  9
$FINGERPRINTGUID
  2
{5478417C-0027-11D6-B8DB-0050BF157EC3}
  9
$VERSIONGUID
  2
{5D600500-83FB-42F1-992B-4AE626521DF2}
  9
$EXTNAMES
290
     1
  9
$PSVPSCALE
 40
0.0
  9
$OLESTARTUP
290
     0
  0
ENDSEC
  0
SECTION
  2
CLASSES
  0
CLASS
  1
ACDBDICTIONARYWDFLT
  2
AcDbDictionaryWithDefault
  3
AutoCAD 2000
 90
        0
280
     0
281
     0
  0
CLASS
  1
ACDBPLACEHOLDER
  2
AcDbPlaceHolder
  3
AutoCAD 2000
 90
        0
280
     0
281
     0
  0
CLASS
  1
LAYOUT
  2
AcDbLayout
  3
AutoCAD 2000
 90
        0
280
     0
281
     0
  0
CLASS
  1
DICTIONARYVAR
  2
AcDbDictionaryVar
  3
AutoCAD 2000
 90
        0
280
     0
281
     0
  0
ENDSEC
  0
SECTION
  2
TABLES
  0
TABLE
  2
VPORT
  5
19
330
0
100
AcDbSymbolTable
 70
     2
  0
VPORT
  5
BD
330
19
100
AcDbSymbolTableRecord
100
AcDbViewportTableRecord
  2
*Active
 70
     0
 10
0.0
 20
0.0
 11
1.0
 21
1.0
 12
403.4203554256865
 22
-368.1501113861823
 13
0.0
 23
0.0
 14
5.0
 24
5.0
 15
10.0
 25
10.0
 16
0.0
 26
0.0
 36
1.0
 17
0.0
 27
0.0
 37
0.0
 40
41.8729745675422
 41
1.573856209150326
 42
50.0
 43
0.0
 44
0.0
 50
0.0
 51
0.0
 71
     0
 72
 20000
 73
     1
 74
     0
 75
     0
 76
     0
 77
     0
 78
     0
281
     0
 65
     1
110
0.0
120
0.0
130
0.0
111
1.0
121
0.0
131
0.0
112
0.0
122
1.0
132
0.0
 79
     0
146
0.0
  0
ENDTAB
  0
TABLE
  2
LTYPE
  5
14
330
0
100
AcDbSymbolTable
 70
     1
  0
LTYPE
  5
15
330
14
100
AcDbSymbolTableRecord
100
AcDbLinetypeTableRecord
  2
ByBlock
 70
     0
  3

 72
    65
 73
     0
 40
0.0
  0
LTYPE
  5
16
330
14
100
AcDbSymbolTableRecord
100
AcDbLinetypeTableRecord
  2
ByLayer
 70
     0
  3

 72
    65
 73
     0
 40
0.0
  0
LTYPE
  5
8
330
14
100
AcDbSymbolTableRecord
100
AcDbLinetypeTableRecord
  2
CONTINUOUS
 70
     0
  3
Solid line
 72
    65
 73
     0
 40
0.0
  0
ENDTAB
  0
TABLE
  2
LAYER
  5
10
330
0
100
AcDbSymbolTable
 70
     2
  0
LAYER
  5
4
330
10
100
AcDbSymbolTableRecord
100
AcDbLayerTableRecord
  2
0
 70
     0
 62
     7
  6
CONTINUOUS
370
    -3
390
5
  0
LAYER
  5
23
330
10
100
AcDbSymbolTableRecord
100
AcDbLayerTableRecord
  2
3
 70
     0
 62
     7
  6
CONTINUOUS
370
    -3
390
5
  0
ENDTAB
  0
TABLE
  2
STYLE
  5
11
330
0
100
AcDbSymbolTable
 70
     1
  0
STYLE
  5
12
330
11
100
AcDbSymbolTableRecord
100
AcDbTextStyleTableRecord
  2
STANDARD
 70
     0
 40
0.0
 41
1.0
 50
0.0
 71
     0
 42
2.0
  3
txt.shx
  4

  0
ENDTAB
  0
TABLE
  2
VIEW
  5
17
330
0
100
AcDbSymbolTable
 70
     0
  0
ENDTAB
  0
TABLE
  2
UCS
  5
18
330
0
100
AcDbSymbolTable
 70
     0
  0
ENDTAB
  0
TABLE
  2
APPID
  5
1B
330
0
100
AcDbSymbolTable
 70
     1
  0
APPID
  5
1C
330
1B
100
AcDbSymbolTableRecord
100
AcDbRegAppTableRecord
  2
ACAD
 70
     0
  0
ENDTAB
  0
TABLE
  2
DIMSTYLE
  5
1D
330
0
100
AcDbSymbolTable
 70
     1
100
AcDbDimStyleTable
 71
     1
340
1E
  0
DIMSTYLE
105
1E
330
1D
100
AcDbSymbolTableRecord
100
AcDbDimStyleTableRecord
  2
Standard
 70
     0
340
12
  0
ENDTAB
  0
TABLE
  2
BLOCK_RECORD
  5
1
330
0
100
AcDbSymbolTable
 70
     0
  0
BLOCK_RECORD
  5
2
330
1
100
AcDbSymbolTableRecord
100
AcDbBlockTableRecord
  2
*Model_Space
340
A
  0
BLOCK_RECORD
  5
C
330
1
100
AcDbSymbolTableRecord
100
AcDbBlockTableRecord
  2
*Paper_Space
340
F
  0
ENDTAB
  0
ENDSEC
  0
SECTION
  2
BLOCKS
  0
BLOCK
  5
3
330
2
100
AcDbEntity
  8
0
100
AcDbBlockBegin
  2
*Model_Space
 70
     0
 10
0.0
 20
0.0
 30
0.0
  3
*Model_Space
  1

  0
ENDBLK
  5
9
330
2
100
AcDbEntity
  8
0
100
AcDbBlockEnd
  0
BLOCK
  5
D
330
C
100
AcDbEntity
 67
     1
  8
0
100
AcDbBlockBegin
  2
*Paper_Space
 70
     0
 10
0.0
 20
0.0
 30
0.0
  3
*Paper_Space
  1

  0
ENDBLK
  5
E
330
C
100
AcDbEntity
 67
     1
  8
0
100
AcDbBlockEnd
  0
ENDSEC
  0
SECTION
  2
ENTITIES
  0
LINE
  5
25
330
2
100
AcDbEntity
  8
0
100
AcDbLine
 10
426.0920392241563
 20
-388.8772422912038
 30
0.0
 11
380.9969174080188
 21
-388.8772422912038
 31
0.0
  0
LINE
  5
26
330
2
100
AcDbEntity
  8
0
100
AcDbLine
 10
426.0920392241563
 20
-380.8772422912038
 30
0.0
 11
380.9969174080188
 21
-380.8772422912038
 31
0.0
  0
ARC
  5
27
330
2
100
AcDbEntity
  8
0
100
AcDbCircle
 10
408.6906122232481
 20
-348.9261596143971
 30
0.0
 40
0.4999999999999638
100
AcDbArc
 50
98.61956024908907
 51
270.0000000000045
  0
LINE
  5
28
330
2
100
AcDbEntity
  8
0
100
AcDbLine
 10
408.6364222890246
 20
-348.4318069776737
 30
0.0
 11
408.2901501326166
 21
-347.4261596143966
 31
0.0
  0
LINE
  5
29
330
2
100
AcDbEntity
  8
0
100
AcDbLine
 10
397.6221688839103
 20
-367.9238340330018
 30
0.0
 11
415.5619095644023
 21
-367.9238340330018
 31
0.0
  0
LINE
  5
2A
330
2
100
AcDbEntity
  8
0
100
AcDbLine
 10
386.9216863151433
 20
-362.7628513318891
 30
0.0
 11
387.4497101341065
 21
-361.6305005979288
 31
0.0
  0
ARC
  5
2B
330
2
100
AcDbEntity
  8
0
100
AcDbCircle
 10
387.8660762688167
 20
-361.907338532227
 30
0.0
 40
0.4999999999998645
100
AcDbArc
 50
11.86989764587075
 51
146.3804397509219
  0
LINE
  5
2C
330
2
100
AcDbEntity
  8
0
100
AcDbLine
 10
392.9586538374536
 20
-369.9261596143972
 30
0.0
 11
396.193174434763
 21
-369.9261596143972
 31
0.0
  0
LINE
  5
2D
330
2
100
AcDbEntity
  8
0
100
AcDbLine
 10
380.9969174080188
 20
-380.8772422912038
 30
0.0
 11
380.9969174080188
 21
-388.8772422912038
 31
0.0
  0
LINE
  5
2E
330
2
100
AcDbEntity
  8
0
100
AcDbLine
 10
384.8284533299235
 20
-380.8772422912038
 30
0.0
 11
384.8284533299235
 21
-388.8772422912038
 31
0.0
  0
LINE
  5
2F
330
2
100
AcDbEntity
  8
0
100
AcDbLine
 10
386.1383746533799
 20
-380.8772422912038
 30
0.0
 11
386.1383746533799
 21
-388.8772422912038
 31
0.0
  0
LINE
  5
30
330
2
100
AcDbEntity
  8
0
100
AcDbLine
 10
385.6316233151703
 20
-380.8772422912038
 30
0.0
 11
385.6316233151703
 21
-388.8772422912038
 31
0.0
  0
LINE
  5
31
330
2
100
AcDbEntity
  8
0
100
AcDbLine
 10
389.5613872855398
 20
-380.8772422912038
 30
0.0
 11
389.5613872855398
 21
-388.8772422912038
 31
0.0
  0
LINE
  5
32
330
2
100
AcDbEntity
  8
0
100
AcDbLine
 10
387.4482959768366
 20
-380.8772422912038
 30
0.0
 11
387.4482959768366
 21
-388.8772422912038
 31
0.0
  0
LINE
  5
33
330
2
100
AcDbEntity
  8
0
100
AcDbLine
 10
386.941544638627
 20
-380.8772422912038
 30
0.0
 11
386.941544638627
 21
-388.8772422912038
 31
0.0
  0
LINE
  5
34
330
2
100
AcDbEntity
  8
0
100
AcDbLine
 10
388.2514659620835
 20
-380.8772422912038
 30
0.0
 11
388.2514659620835
 21
-388.8772422912038
 31
0.0
  0
LINE
  5
35
330
2
100
AcDbEntity
  8
0
100
AcDbLine
 10
388.7582173002932
 20
-380.8772422912038
 30
0.0
 11
388.7582173002933
 21
-388.8772422912038
 31
0.0
  0
LINE
  5
36
330
2
100
AcDbEntity
  8
0
100
AcDbLine
 10
392.96369401887
 20
-380.8772422912038
 30
0.0
 11
392.9636940188698
 21
-388.8772422912038
 31
0.0
  0
LINE
  5
37
330
2
100
AcDbEntity
  8
0
100
AcDbLine
 10
382.1516808845375
 20
-374.1618989803416
 30
0.0
 11
386.7738505984236
 21
-376.3172521152188
 31
0.0
  0
ARC
  5
38
330
2
100
AcDbEntity
  8
0
100
AcDbCircle
 10
386.0914701453852
 20
-365.7129936451049
 30
0.0
 40
0.4999999999999638
100
AcDbArc
 50
163.619560249089
 51
298.1301023541276
  0
ARC
  5
39
330
2
100
AcDbEntity
  8
0
100
AcDbCircle
 10
386.5561549453603
 20
-364.7164738757022
 30
0.0
 40
0.4999999999999801
100
AcDbArc
 50
11.86989764584442
 51
146.3804397508959
  0
LINE
  5
3A
330
2
100
AcDbEntity
  8
0
100
AcDbLine
 10
386.9304541688316
 20
-362.7440486089766
 30
0.0
 11
385.8726871956505
 21
-362.6328728201708
 31
0.0
  0
LINE
  5
3B
330
2
100
AcDbEntity
  8
0
100
AcDbLine
 10
381.1843018339454
 20
-371.5040468827868
 30
0.0
 11
383.2261482268188
 21
-367.1252931626526
 31
0.0
  0
ARC
  5
3C
330
2
100
AcDbEntity
  8
0
100
AcDbCircle
 10
382.9969174080188
 20
-372.3492834062682
 30
0.0
 40
2.0
100
AcDbArc
 50
154.9999999999984
 51
244.9999999999995
  0
LINE
  5
3D
330
2
100
AcDbEntity
  8
0
100
AcDbLine
 10
385.6205328453755
 20
-365.5531839524515
 30
0.0
 11
384.5627658721943
 21
-365.4420081636463
 31
0.0
  0
LINE
  5
3E
330
2
100
AcDbEntity
  8
0
100
AcDbLine
 10
384.045300271108
 20
-366.5517167263016
 30
0.0
 11
384.5627658721943
 21
-365.4420081636463
 31
0.0
  0
LINE
  5
3F
330
2
100
AcDbEntity
  8
0
100
AcDbLine
 10
385.8726871956505
 20
-362.6328728201709
 30
0.0
 11
385.365935857441
 21
-363.7196045719388
 31
0.0
  0
LINE
  5
40
330
2
100
AcDbEntity
  8
0
100
AcDbLine
 10
385.6117649916867
 20
-365.571986675365
 30
0.0
 11
386.13978881065
 21
-364.4396359414041
 31
0.0
  0
LINE
  5
41
330
2
100
AcDbEntity
  8
0
100
AcDbLine
 10
385.365935857441
 20
-363.7196045719387
 30
0.0
 11
386.1310209569614
 21
-364.4584386643174
 31
0.0
  0
LINE
  5
42
330
2
100
AcDbEntity
  8
0
100
AcDbLine
 10
383.2963135943712
 20
-366.9748230463568
 30
0.0
 11
383.2963135943712
 21
-366.9748230463569
 31
0.0
  0
LINE
  5
43
330
2
100
AcDbEntity
  8
0
100
AcDbLine
 10
383.3808372467195
 20
-366.7935614889496
 30
0.0
 11
383.3808372467192
 21
-366.7935614889496
 31
0.0
  0
ARC
  5
44
330
2
100
AcDbEntity
  8
0
100
AcDbCircle
 10
383.5921463775898
 20
-366.3404075954313
 30
0.0
 40
0.5
100
AcDbArc
 50
274.9999999999864
 51
334.9999999999969
  0
ARC
  5
45
330
2
100
AcDbEntity
  8
0
100
AcDbCircle
 10
383.6793021203372
 20
-367.3366022935231
 30
0.0
 40
0.5
100
AcDbArc
 50
94.99999999998705
 51
154.9999999999946
  0
LINE
  5
46
330
2
100
AcDbEntity
  8
0
100
AcDbLine
 10
388.5424110199173
 20
-369.9261596143973
 30
0.0
 11
393.2323516479014
 21
-369.9261596143972
 31
0.0
  0
LINE
  5
47
330
2
100
AcDbEntity
  8
0
100
AcDbLine
 10
388.5424110199173
 20
-369.9261596143973
 30
0.0
 11
393.2323516479011
 21
-369.9261596143972
 31
0.0
  0
LINE
  5
48
330
2
100
AcDbEntity
  8
0
100
AcDbLine
 10
389.4449148469602
 20
-372.6004076947866
 30
0.0
 11
390.0788422395713
 21
-371.2409460142316
 31
0.0
  0
LINE
  5
49
330
2
100
AcDbEntity
  8
0
100
AcDbLine
 10
388.355384862157
 20
-361.8044935008045
 30
0.0
 11
387.6371291051381
 21
-363.3447979424275
 31
0.0
  0
ARC
  5
4A
330
2
100
AcDbEntity
  8
0
100
AcDbCircle
 10
387.589039548442
 20
-375.042314087012
 30
0.0
 40
0.3
100
AcDbArc
 50
335.000000000003
 51
65.0000000000024
  0
LINE
  5
4B
330
2
100
AcDbEntity
  8
0
100
AcDbLine
 10
387.4383136228123
 20
-376.0754073525709
 30
0.0
 11
387.860931884553
 21
-375.1690995655343
 31
0.0
  0
LINE
  5
4C
330
2
100
AcDbEntity
  8
0
100
AcDbLine
 10
389.4449148469602
 20
-372.6004076947866
 30
0.0
 11
387.6793073538278
 21
-371.7770913994431
 31
0.0
  0
LINE
  5
4D
330
2
100
AcDbEntity
  8
0
100
AcDbLine
 10
390.0788422395713
 20
-371.2409460142316
 30
0.0
 11
388.3132347464389
 21
-370.4176297188883
 31
0.0
  0
ARC
  5
4E
330
2
100
AcDbEntity
  8
0
100
AcDbCircle
 10
387.4013914688416
 20
-362.9038583016297
 30
0.0
 40
0.4999999999999638
100
AcDbArc
 50
163.619560249089
 51
298.1301023541348
  0
LINE
  5
4F
330
2
100
AcDbEntity
  8
0
100
AcDbLine
 10
386.5393175954057
 20
-374.2218073256891
 30
0.0
 11
388.5424110199173
 21
-369.9261596143972
 31
0.0
  0
LINE
  5
50
330
2
100
AcDbEntity
  8
0
100
AcDbLine
 10
386.5393175954058
 20
-374.2218073256891
 30
0.0
 11
387.7158250269642
 21
-374.770421750901
 31
0.0
  0
ARC
  5
51
330
2
100
AcDbEntity
  8
0
100
AcDbCircle
 10
386.9851597292939
 20
-375.8640982217006
 30
0.0
 40
0.5
100
AcDbArc
 50
245.0000000000026
 51
335.0000000000012
  0
LINE
  5
52
330
2
100
AcDbEntity
  8
0
100
AcDbLine
 10
387.0454635386962
 20
-364.6136288442896
 30
0.0
 11
386.3272077816777
 21
-366.1539332859114
 31
0.0
  0
LWPOLYLINE
  5
53
330
2
100
AcDbEntity
  8
0
100
AcDbPolyline
 90
        4
 70
     0
 43
0.0
 10
397.6700654824861
 20
-384.1272422912038
 42
0.0325504115107958
 10
397.5455044769947
 20
-383.7159142360038
 42
0.0945713081281528
 10
396.9599521206983
 20
-382.7559219476441
 42
0.0891973638149591
 10
396.1881204439595
 20
-382.1611139760681
 42
0.1075842303698509
  0
LWPOLYLINE
  5
54
330
2
100
AcDbEntity
  8
0
100
AcDbPolyline
 90
        4
 70
     0
 43
0.0
 10
396.1881204439596
 20
-387.5933706063396
 42
0.0891973638149388
 10
396.9599521206983
 20
-386.9985626347635
 42
0.0945713081280964
 10
397.5455044769947
 20
-386.0385703464038
 42
0.0325504115107818
 10
397.6700654824861
 20
-385.6272422912038
 42
0.0900234319787623
  0
ARC
  5
55
330
2
100
AcDbEntity
  8
0
100
AcDbCircle
 10
398.2888672524121
 20
-384.8772423003216
 30
0.0
 40
0.5
100
AcDbArc
 50
289.5289191994917
 51
70.47108080050833
  0
ARC
  5
56
330
2
100
AcDbEntity
  8
0
100
AcDbCircle
 10
398.0559887961847
 20
-384.8772422912038
 30
0.0
 40
0.8434671327657625
100
AcDbArc
 50
117.2287385881116
 51
242.7712614118969
  0
LINE
  5
57
330
2
100
AcDbEntity
  8
0
100
AcDbLine
 10
397.6700654824861
 20
-385.6272422912038
 30
0.0
 11
398.4560085529523
 21
-385.3484787437912
 31
0.0
  0
LINE
  5
58
330
2
100
AcDbEntity
  8
0
100
AcDbLine
 10
397.6700654824861
 20
-384.1272422912038
 30
0.0
 11
398.4560085529523
 21
-384.4060058568523
 31
0.0
  0
LWPOLYLINE
  5
59
330
2
100
AcDbEntity
  8
0
100
AcDbPolyline
 90
       16
 70
     1
 43
0.0
 10
394.2877475216238
 20
-384.8772422912038
 42
0.1075842303698699
 10
394.5344494914641
 20
-386.0105243249924
 42
0.1018043092900579
 10
395.2572632523818
 20
-386.9985626347635
 42
0.0945713081281536
 10
396.3164975457321
 20
-387.6446481750973
 42
0.090023431978734
 10
397.5978812785113
 20
-387.8772422912038
 42
0.0900234319787261
 10
398.8792650112909
 20
-387.6446481750973
 42
0.0945713081281299
 10
399.938499304641
 20
-386.9985626347635
 42
0.1018043092900474
 10
400.6613130655588
 20
-386.0105243249924
 42
0.107584230369832
 10
400.9080150353988
 20
-384.8772422912038
 42
0.1075842303698778
 10
400.6613130655587
 20
-383.7439602574153
 42
0.1018043092900788
 10
399.938499304641
 20
-382.7559219476441
 42
0.0945713081281491
 10
398.8792650112909
 20
-382.1098364073104
 42
0.0900234319787478
 10
397.5978812785113
 20
-381.8772422912038
 42
0.0900234319787261
 10
396.3164975457319
 20
-382.1098364073103
 42
0.0945713081281301
 10
395.2572632523818
 20
-382.7559219476441
 42
0.1018043092900782
 10
394.5344494914641
 20
-383.7439602574153
 42
0.1075842303698778
  0
LINE
  5
5A
330
2
100
AcDbEntity
  8
0
100
AcDbLine
 10
406.7149898615106
 20
-380.8772422912038
 30
0.0
 11
406.7149898615106
 21
-388.8772422912038
 31
0.0
  0
ARC
  5
5B
330
2
100
AcDbEntity
  8
0
100
AcDbCircle
 10
396.193174434763
 20
-369.4261596143972
 30
0.0
 40
0.5
100
AcDbArc
 50
270.0
 51
339.9999999999993
  0
LINE
  5
5C
330
2
100
AcDbEntity
  8
0
100
AcDbLine
 10
396.663020745156
 20
-369.5971696860601
 30
0.0
 11
397.1523225735175
 21
-368.252823961339
 31
0.0
  0
LINE
  5
5D
330
2
100
AcDbEntity
  8
0
100
AcDbLine
 10
396.6630207451558
 20
-369.5971696860601
 30
0.0
 11
397.1523225735173
 21
-368.252823961339
 31
0.0
  0
ARC
  5
5E
330
2
100
AcDbEntity
  8
0
100
AcDbCircle
 10
397.6221688839103
 20
-368.4238340330018
 30
0.0
 40
0.5
100
AcDbArc
 50
90.0
 51
160.0000000000004
  0
LINE
  5
5F
330
2
100
AcDbEntity
  8
0
100
AcDbLine
 10
396.6091299025855
 20
-356.4085283738756
 30
0.0
 11
391.3525447377729
 21
-353.9573424557795
 31
0.0
  0
LINE
  5
60
330
2
100
AcDbEntity
  8
0
100
AcDbLine
 10
397.6656755569371
 20
-354.142758906284
 30
0.0
 11
392.4090903921247
 21
-351.691572988188
 31
0.0
  0
LINE
  5
61
330
2
100
AcDbEntity
  8
0
100
AcDbLine
 10
405.1906122232488
 20
-347.4261596143968
 30
0.0
 11
392.9636940188698
 21
-347.4261596143968
 31
0.0
  0
LINE
  5
62
330
2
100
AcDbEntity
  8
0
100
AcDbLine
 10
389.2956998278106
 20
-355.2921985415122
 30
0.0
 11
392.9636940188698
 21
-347.4261596143968
 31
0.0
  0
ARC
  5
63
330
2
100
AcDbEntity
  8
0
100
AcDbCircle
 10
390.4859189157292
 20
-356.2890678452755
 30
0.0
 40
0.4999999999998645
100
AcDbArc
 50
11.86989764551816
 51
146.3804397509219
  0
LINE
  5
64
330
2
100
AcDbEntity
  8
0
100
AcDbLine
 10
390.9752275090641
 20
-356.186222813864
 30
0.0
 11
390.2569717520471
 21
-357.7265272554838
 31
0.0
  0
LINE
  5
65
330
2
100
AcDbEntity
  8
0
100
AcDbLine
 10
389.5502968157441
 20
-357.1257779220251
 30
0.0
 11
388.4925298425628
 21
-357.014602133219
 31
0.0
  0
ARC
  5
66
330
2
100
AcDbEntity
  8
0
100
AcDbCircle
 10
389.1759975922727
 20
-359.0982031887516
 30
0.0
 40
0.4999999999998645
100
AcDbArc
 50
11.86989764586916
 51
146.3804397509219
  0
LINE
  5
67
330
2
100
AcDbEntity
  8
0
100
AcDbLine
 10
389.6653061856071
 20
-358.9953581573418
 30
0.0
 11
388.9470504285918
 21
-360.5356625989577
 31
0.0
  0
LINE
  5
68
330
2
100
AcDbEntity
  8
0
100
AcDbLine
 10
388.492529842564
 20
-357.0146021332191
 30
0.0
 11
387.985778504354
 21
-358.1013338849877
 31
0.0
  0
LINE
  5
69
330
2
100
AcDbEntity
  8
0
100
AcDbLine
 10
387.9857785043538
 20
-358.1013338849874
 30
0.0
 11
388.7508636038741
 21
-358.8401679773663
 31
0.0
  0
ARC
  5
6A
330
2
100
AcDbEntity
  8
0
100
AcDbCircle
 10
388.7113127922976
 20
-360.0947229581541
 30
0.0
 40
0.4999999999999638
100
AcDbArc
 50
163.619560249089
 51
298.1301023541676
  0
LINE
  5
6B
330
2
100
AcDbEntity
  8
0
100
AcDbLine
 10
388.2403754922879
 20
-359.934913265501
 30
0.0
 11
387.1826085191069
 21
-359.823737476695
 31
0.0
  0
LINE
  5
6C
330
2
100
AcDbEntity
  8
0
100
AcDbLine
 10
388.2316076385997
 20
-359.9537159884133
 30
0.0
 11
388.7596314575627
 21
-358.821365254453
 31
0.0
  0
LINE
  5
6D
330
2
100
AcDbEntity
  8
0
100
AcDbLine
 10
389.5415289620559
 20
-357.1445806449375
 30
0.0
 11
390.0695527810189
 21
-356.0122299109771
 31
0.0
  0
ARC
  5
6E
330
2
100
AcDbEntity
  8
0
100
AcDbCircle
 10
390.0212341157541
 20
-357.2855876146782
 30
0.0
 40
0.4999999999999638
100
AcDbArc
 50
163.619560249089
 51
298.130102354301
  0
LINE
  5
6F
330
2
100
AcDbEntity
  8
0
100
AcDbLine
 10
389.2956998278106
 20
-355.2921985415122
 30
0.0
 11
390.0607849273304
 21
-356.0310326338905
 31
0.0
  0
LINE
  5
70
330
2
100
AcDbEntity
  8
0
100
AcDbLine
 10
391.3525447377729
 20
-353.9573424557795
 30
0.0
 11
392.4090903921247
 21
-351.691572988188
 31
0.0
  0
LINE
  5
71
330
2
100
AcDbEntity
  8
0
100
AcDbLine
 10
387.1826085191073
 20
-359.823737476695
 30
0.0
 11
386.6758571808976
 21
-360.9104692284633
 31
0.0
  0
LINE
  5
72
330
2
100
AcDbEntity
  8
0
100
AcDbLine
 10
386.6758571808976
 20
-360.9104692284633
 30
0.0
 11
387.4409422804177
 21
-361.6493033208423
 31
0.0
  0
LINE
  5
73
330
2
100
AcDbEntity
  8
0
100
AcDbLine
 10
396.6091299025855
 20
-356.4085283738756
 30
0.0
 11
397.6656755569371
 21
-354.142758906284
 31
0.0
  0
LINE
  5
74
330
2
100
AcDbEntity
  8
0
100
AcDbLine
 10
408.2901501326166
 20
-347.4261596143968
 30
0.0
 11
407.0910743138806
 21
-347.4261596143968
 31
0.0
  0
ARC
  5
75
330
2
100
AcDbEntity
  8
0
100
AcDbCircle
 10
406.690612223249
 20
-348.9261596143967
 30
0.0
 40
0.4999999999999801
100
AcDbArc
 50
269.9999999999999
 51
81.38043975089599
  0
LINE
  5
76
330
2
100
AcDbEntity
  8
0
100
AcDbLine
 10
407.0910743138806
 20
-347.4261596143966
 30
0.0
 11
406.7448021574726
 21
-348.4318069776737
 31
0.0
  0
ARC
  5
77
330
2
100
AcDbEntity
  8
0
100
AcDbCircle
 10
405.5910743138807
 20
-348.9261596143969
 30
0.0
 40
0.4999999999999638
100
AcDbArc
 50
98.61956024908907
 51
270.0000000000045
  0
LINE
  5
78
330
2
100
AcDbEntity
  8
0
100
AcDbLine
 10
405.5368843796572
 20
-348.4318069776737
 30
0.0
 11
405.1906122232488
 21
-347.4261596143968
 31
0.0
  0
LINE
  5
79
330
2
100
AcDbEntity
  8
0
100
AcDbLine
 10
406.690612223249
 20
-349.4261596143966
 30
0.0
 11
405.5910743138808
 21
-349.4261596143967
 31
0.0
  0
LINE
  5
7A
330
2
100
AcDbEntity
  8
0
100
AcDbLine
 10
405.5161378703783
 20
-348.4318069776737
 30
0.0
 11
406.7655486667517
 21
-348.4318069776737
 31
0.0
  0
LINE
  5
7B
330
2
100
AcDbEntity
  8
0
100
AcDbLine
 10
426.0920392241563
 20
-371.5035098835873
 30
0.0
 11
426.0920392241563
 21
-352.9261596143956
 31
0.0
  0
LINE
  5
7C
330
2
100
AcDbEntity
  8
0
100
AcDbLine
 10
424.0920392241561
 20
-370.9261596143976
 30
0.0
 11
422.8420392241561
 21
-371.6478474508848
 31
0.0
  0
LINE
  5
7D
330
2
100
AcDbEntity
  8
0
100
AcDbLine
 10
423.0052151353227
 20
-372.8650390790996
 30
0.0
 11
423.9709483917232
 21
-373.0353239083705
 31
0.0
  0
LINE
  5
7E
330
2
100
AcDbEntity
  8
0
100
AcDbLine
 10
423.0920392241562
 20
-369.9261596143972
 30
0.0
 11
423.9746744063896
 21
-369.7705272176468
 31
0.0
  0
LINE
  5
7F
330
2
100
AcDbEntity
  8
0
100
AcDbLine
 10
409.8145277708785
 20
-380.8772422912038
 30
0.0
 11
409.8145277708785
 21
-388.8772422912038
 31
0.0
  0
LINE
  5
80
330
2
100
AcDbEntity
  8
0
100
AcDbLine
 10
411.7149898615099
 20
-380.8772422912038
 30
0.0
 11
411.7149898615099
 21
-388.8772422912038
 31
0.0
  0
LINE
  5
81
330
2
100
AcDbEntity
  8
0
100
AcDbLine
 10
412.8140656802457
 20
-380.8772422912038
 30
0.0
 11
412.8140656802457
 21
-388.8772422912038
 31
0.0
  0
LINE
  5
82
330
2
100
AcDbEntity
  8
0
100
AcDbLine
 10
414.8145277708783
 20
-380.8772422912038
 30
0.0
 11
414.8145277708782
 21
-388.8772422912038
 31
0.0
  0
LINE
  5
83
330
2
100
AcDbEntity
  8
0
100
AcDbLine
 10
408.6154519521421
 20
-380.8772422912038
 30
0.0
 11
408.6154519521421
 21
-388.8772422912038
 31
0.0
  0
LINE
  5
84
330
2
100
AcDbEntity
  8
0
100
AcDbLine
 10
417.9140656802464
 20
-380.8772422912038
 30
0.0
 11
417.9140656802465
 21
-388.8772422912038
 31
0.0
  0
LINE
  5
85
330
2
100
AcDbEntity
  8
0
100
AcDbLine
 10
416.0136035896151
 20
-380.8772422912038
 30
0.0
 11
416.0136035896151
 21
-388.8772422912038
 31
0.0
  0
ARC
  5
86
330
2
100
AcDbEntity
  8
0
100
AcDbCircle
 10
415.5619095644023
 20
-368.4238340330018
 30
0.0
 40
0.5
100
AcDbArc
 50
20.00000000000006
 51
90.0
  0
LINE
  5
87
330
2
100
AcDbEntity
  8
0
100
AcDbLine
 10
419.9517268004131
 20
-369.9261596143972
 30
0.0
 11
423.0920392241562
 21
-369.9261596143972
 31
0.0
  0
LINE
  5
88
330
2
100
AcDbEntity
  8
0
100
AcDbLine
 10
419.9517268004131
 20
-369.9261596143972
 30
0.0
 11
416.99090401355
 21
-369.9261596143972
 31
0.0
  0
LINE
  5
89
330
2
100
AcDbEntity
  8
0
100
AcDbLine
 10
422.5920392241563
 20
-372.080860152777
 30
0.0
 11
422.5920392241563
 21
-372.3726352025935
 31
0.0
  0
ARC
  5
8A
330
2
100
AcDbEntity
  8
0
100
AcDbCircle
 10
423.0920392241563
 20
-372.080860152777
 30
0.0
 40
0.5
100
AcDbArc
 50
120.0000000000001
 51
180.0
  0
ARC
  5
8B
330
2
100
AcDbEntity
  8
0
100
AcDbCircle
 10
423.0920392241563
 20
-372.3726352025936
 30
0.0
 40
0.5
100
AcDbArc
 50
179.9999999999985
 51
260.0000000000001
  0
ARC
  5
8C
330
2
100
AcDbEntity
  8
0
100
AcDbCircle
 10
416.99090401355
 20
-369.4261596143972
 30
0.0
 40
0.5
100
AcDbArc
 50
200.0000000000006
 51
270.0
  0
LINE
  5
8D
330
2
100
AcDbEntity
  8
0
100
AcDbLine
 10
416.5210577031571
 20
-369.5971696860601
 30
0.0
 11
416.0317558747953
 21
-368.252823961339
 31
0.0
  0
LINE
  5
8E
330
2
100
AcDbEntity
  8
0
100
AcDbLine
 10
426.0920392241563
 20
-380.8772422912038
 30
0.0
 11
426.0920392241563
 21
-388.8772422912038
 31
0.0
  0
ARC
  5
8F
330
2
100
AcDbEntity
  8
0
100
AcDbCircle
 10
425.0920392241563
 20
-371.5035098835873
 30
0.0
 40
1.0
100
AcDbArc
 50
300.0000000000009
 51
0.0
  0
LINE
  5
90
330
2
100
AcDbEntity
  8
0
100
AcDbLine
 10
425.5920392241563
 20
-372.3695352873718
 30
0.0
 11
424.6445965693901
 21
-372.9165415591426
 31
0.0
  0
ARC
  5
91
330
2
100
AcDbEntity
  8
0
100
AcDbCircle
 10
424.1445965693901
 20
-372.0505161553582
 30
0.0
 40
1.0
100
AcDbArc
 50
260.0000000000008
 51
300.0000000000003
  0
LINE
  5
92
330
2
100
AcDbEntity
  8
0
100
AcDbLine
 10
424.0920392241561
 20
-370.9261596143976
 30
0.0
 11
424.0920392241561
 21
-369.8690079929481
 31
0.0
  0
ARC
  5
93
330
2
100
AcDbEntity
  8
0
100
AcDbCircle
 10
423.9920392241562
 20
-369.8690079929481
 30
0.0
 40
0.1
100
AcDbArc
 50
0.0
 51
99.9999999999995
  0
LINE
  5
94
330
2
100
AcDbEntity
  8
0
100
AcDbLine
 10
423.3931019028636
 20
-350.2272222931036
 30
0.0
 11
422.4371504428759
 21
-350.6934709732268
 31
0.0
  0
ARC
  5
95
330
2
100
AcDbEntity
  8
0
100
AcDbCircle
 10
423.4634858335629
 20
-352.4189265673623
 30
0.0
 40
0.4999999999999638
100
AcDbArc
 50
53.61956024908907
 51
225.0000000000044
  0
LINE
  5
96
330
2
100
AcDbEntity
  8
0
100
AcDbLine
 10
423.8874231548562
 20
-353.5499706698416
 30
0.0
 11
423.1099324429697
 21
-352.7724799579556
 31
0.0
  0
LINE
  5
97
330
2
100
AcDbEntity
  8
0
100
AcDbLine
 10
415.9892259513531
 20
-349.4261596143958
 30
0.0
 11
414.8896880419846
 21
-349.4261596143962
 31
0.0
  0
LINE
  5
98
330
2
100
AcDbEntity
  8
0
100
AcDbLine
 10
414.8147515984828
 20
-348.4318069776731
 30
0.0
 11
416.0641623948558
 21
-348.4318069776728
 31
0.0
  0
LINE
  5
99
330
2
100
AcDbEntity
  8
0
100
AcDbLine
 10
414.4892259513536
 20
-347.4261596143968
 30
0.0
 11
413.2901501326166
 21
-347.4261596143968
 31
0.0
  0
LINE
  5
9A
330
2
100
AcDbEntity
  8
0
100
AcDbLine
 10
411.3896880419851
 20
-347.4261596143968
 30
0.0
 11
410.1906122232485
 21
-347.4261596143968
 31
0.0
  0
ARC
  5
9B
330
2
100
AcDbEntity
  8
0
100
AcDbCircle
 10
409.7901501326166
 20
-348.9261596143967
 30
0.0
 40
0.4999999999998645
100
AcDbArc
 50
270.0000000000181
 51
81.38043975092195
  0
ARC
  5
9C
330
2
100
AcDbEntity
  8
0
100
AcDbCircle
 10
411.7901501326163
 20
-348.9261596143967
 30
0.0
 40
0.4999999999999638
100
AcDbArc
 50
98.61956024908907
 51
270.0000000000045
  0
LINE
  5
9D
330
2
100
AcDbEntity
  8
0
100
AcDbLine
 10
412.8896880419849
 20
-349.4261596143963
 30
0.0
 11
411.7901501326166
 21
-349.4261596143965
 31
0.0
  0
LINE
  5
9E
330
2
100
AcDbEntity
  8
0
100
AcDbLine
 10
411.7152136891148
 20
-348.4318069776733
 30
0.0
 11
412.9646244854876
 21
-348.4318069776733
 31
0.0
  0
LINE
  5
9F
330
2
100
AcDbEntity
  8
0
100
AcDbLine
 10
411.7359601983928
 20
-348.4318069776733
 30
0.0
 11
411.389688041985
 21
-347.4261596143963
 31
0.0
  0
LINE
  5
A0
330
2
100
AcDbEntity
  8
0
100
AcDbLine
 10
410.1906122232485
 20
-347.4261596143968
 30
0.0
 11
409.8443400668402
 21
-348.4318069776736
 31
0.0
  0
ARC
  5
A1
330
2
100
AcDbEntity
  8
0
100
AcDbCircle
 10
412.8896880419848
 20
-348.9261596143965
 30
0.0
 40
0.4999999999998645
100
AcDbArc
 50
270.0000000000181
 51
81.38043975092195
  0
LINE
  5
A2
330
2
100
AcDbEntity
  8
0
100
AcDbLine
 10
413.2901501326166
 20
-347.4261596143965
 30
0.0
 11
412.9438779762086
 21
-348.4318069776733
 31
0.0
  0
ARC
  5
A3
330
2
100
AcDbEntity
  8
0
100
AcDbCircle
 10
414.8896880419846
 20
-348.9261596143963
 30
0.0
 40
0.4999999999999638
100
AcDbArc
 50
98.61956024908907
 51
270.0000000000045
  0
LINE
  5
A4
330
2
100
AcDbEntity
  8
0
100
AcDbLine
 10
414.8354981077607
 20
-348.4318069776731
 30
0.0
 11
414.4892259513531
 21
-347.4261596143958
 31
0.0
  0
LINE
  5
A5
330
2
100
AcDbEntity
  8
0
100
AcDbLine
 10
408.6156757797466
 20
-348.4318069776737
 30
0.0
 11
409.8650865761195
 21
-348.4318069776736
 31
0.0
  0
LINE
  5
A6
330
2
100
AcDbEntity
  8
0
100
AcDbLine
 10
409.7901501326166
 20
-349.4261596143966
 30
0.0
 11
408.6906122232482
 21
-349.4261596143969
 31
0.0
  0
LINE
  5
A7
330
2
100
AcDbEntity
  8
0
100
AcDbLine
 10
421.5830235910665
 20
-349.8393441214174
 30
0.0
 11
422.0492722711902
 21
-348.88339266143
 31
0.0
  0
ARC
  5
A8
330
2
100
AcDbEntity
  8
0
100
AcDbCircle
 10
422.04927227119
 20
-351.0047130049894
 30
0.0
 40
0.4999999999998645
100
AcDbArc
 50
225.0000000000182
 51
36.38043975092193
  0
LINE
  5
A9
330
2
100
AcDbEntity
  8
0
100
AcDbLine
 10
421.6957188805968
 20
-351.3582663955828
 30
0.0
 11
420.9182281687106
 21
-350.5807756836969
 31
0.0
  0
LINE
  5
AA
330
2
100
AcDbEntity
  8
0
100
AcDbLine
 10
421.5683535936702
 20
-349.8246741240212
 30
0.0
 11
422.4518204402731
 21
-350.7081409706241
 31
0.0
  0
ARC
  5
AB
330
2
100
AcDbEntity
  8
0
100
AcDbCircle
 10
421.2717815593037
 20
-350.2272222931036
 30
0.0
 40
0.4999999999999638
100
AcDbArc
 50
53.61956024908907
 51
225.0000000000044
  0
LINE
  5
AC
330
2
100
AcDbEntity
  8
0
100
AcDbLine
 10
420.5920392241566
 20
-347.4261596143968
 30
0.0
 11
422.0492722711902
 21
-348.88339266143
 31
0.0
  0
LINE
  5
AD
330
2
100
AcDbEntity
  8
0
100
AcDbLine
 10
416.3896880419848
 20
-347.4261596143961
 30
0.0
 11
416.0434158855768
 21
-348.4318069776728
 31
0.0
  0
LINE
  5
AE
330
2
100
AcDbEntity
  8
0
100
AcDbLine
 10
420.5920392241566
 20
-347.4261596143968
 30
0.0
 11
416.3896880419846
 21
-347.4261596143968
 31
0.0
  0
ARC
  5
AF
330
2
100
AcDbEntity
  8
0
100
AcDbCircle
 10
415.9892259513529
 20
-348.9261596143961
 30
0.0
 40
0.4999999999998645
100
AcDbArc
 50
270.0000000000181
 51
81.38043975092195
  0
LINE
  5
B0
330
2
100
AcDbEntity
  8
0
100
AcDbLine
 10
423.3931019028636
 20
-350.2272222931036
 30
0.0
 11
424.2409765454495
 21
-351.0750969356887
 31
0.0
  0
LINE
  5
B1
330
2
100
AcDbEntity
  8
0
100
AcDbLine
 10
425.5848061771231
 20
-352.4189265673626
 30
0.0
 11
426.0920392241563
 21
-352.9261596143956
 31
0.0
  0
LINE
  5
B2
330
2
100
AcDbEntity
  8
0
100
AcDbLine
 10
425.5848061771231
 20
-352.4189265673626
 30
0.0
 11
424.6288547171353
 21
-352.8851752474857
 31
0.0
  0
ARC
  5
B3
330
2
100
AcDbEntity
  8
0
100
AcDbCircle
 10
424.2409765454492
 20
-353.1964172792482
 30
0.0
 40
0.4999999999998645
100
AcDbArc
 50
225.0000000000182
 51
36.38043975092193
  0
LINE
  5
B4
330
2
100
AcDbEntity
  8
0
100
AcDbLine
 10
423.7747278653258
 20
-352.0310483956763
 30
0.0
 11
424.2409765454495
 21
-351.0750969356887
 31
0.0
  0
LINE
  5
B5
330
2
100
AcDbEntity
  8
0
100
AcDbLine
 10
423.7600578679294
 20
-352.0163783982798
 30
0.0
 11
424.6435247145324
 21
-352.8998452448828
 31
0.0
  0
ENDSEC
  0
SECTION
  2
OBJECTS
  0
DICTIONARY
  5
7
330
0
100
AcDbDictionary
281
     1
  3
ACAD_GROUP
350
20
  3
ACAD_LAYOUT
350
B
  3
ACAD_MLINESTYLE
350
21
  3
ACAD_PLOTSETTINGS
350
22
  3
ACAD_PLOTSTYLENAME
350
6
  3
AcDbVariableDictionary
350
B6
  0
DICTIONARY
  5
20
102
{ACAD_REACTORS
330
7
102
}
330
7
100
AcDbDictionary
281
     1
  0
DICTIONARY
  5
B
102
{ACAD_REACTORS
330
7
102
}
330
7
100
AcDbDictionary
281
     1
  3
Layout1
350
F
  3
Model
350
A
  0
DICTIONARY
  5
21
102
{ACAD_REACTORS
330
7
102
}
330
7
100
AcDbDictionary
281
     1
  3
Standard
350
24
  0
DICTIONARY
  5
22
102
{ACAD_REACTORS
330
7
102
}
330
7
100
AcDbDictionary
281
     1
  0
ACDBDICTIONARYWDFLT
  5
6
102
{ACAD_REACTORS
330
7
102
}
330
7
100
AcDbDictionary
281
     1
  3
Normal
350
5
100
AcDbDictionaryWithDefault
340
5
  0
DICTIONARY
  5
B6
102
{ACAD_REACTORS
330
7
102
}
330
7
100
AcDbDictionary
281
     1
  3
DIMASSOC
350
B8
  3
HIDETEXT
350
B7
  0
LAYOUT
  5
F
102
{ACAD_REACTORS
330
B
102
}
330
B
100
AcDbPlotSettings
  1

  2
HP DesignJet 450C (D / A1)
  4

  6

 40
0.0
 41
0.0
 42
0.0
 43
0.0
 44
0.0
 45
0.0
 46
0.0
 47
0.0
 48
0.0
 49
0.0
140
0.0
141
0.0
142
1.0
143
1.0
 70
   688
 72
     0
 73
     0
 74
     5
  7

 75
    16
147
1.0
148
0.0
149
0.0
100
AcDbLayout
  1
Layout1
 70
     1
 71
     1
 10
0.0
 20
0.0
 11
420.0
 21
297.0
 12
0.0
 22
0.0
 32
0.0
 14
1.000000000000000E+20
 24
1.000000000000000E+20
 34
1.000000000000000E+20
 15
-1.000000000000000E+20
 25
-1.000000000000000E+20
 35
-1.000000000000000E+20
146
0.0
 13
0.0
 23
0.0
 33
0.0
 16
1.0
 26
0.0
 36
0.0
 17
0.0
 27
1.0
 37
0.0
 76
     0
330
C
  0
LAYOUT
  5
A
102
{ACAD_REACTORS
330
B
102
}
330
B
100
AcDbPlotSettings
  1

  2
HP DesignJet 450C  (Kopyala 2)
  4
User268
  6

 40
4.995333194732666
 41
16.93333625793457
 42
4.995330810546875
 43
16.93331909179687
 44
209.9733276367186
 45
296.8413391113281
 46
10.62
 47
0.0
 48
491.2355658467649
 49
-469.3514065403653
140
594.4596700833231
141
-317.4775908728961
142
1.0
143
0.5775225717360403
 70
 11956
 72
     1
 73
     0
 74
     4
  7

 75
     0
147
1.731534054147853
148
-491.2355658467649
149
469.3514065403653
100
AcDbLayout
  1
Model
 70
     1
 71
     0
 10
0.0
 20
0.0
 11
12.0
 21
9.0
 12
0.0
 22
0.0
 32
0.0
 14
0.0
 24
0.0
 34
0.0
 15
0.0
 25
0.0
 35
0.0
146
0.0
 13
0.0
 23
0.0
 33
0.0
 16
1.0
 26
0.0
 36
0.0
 17
0.0
 27
1.0
 37
0.0
 76
     0
330
2
  0
MLINESTYLE
  5
24
102
{ACAD_REACTORS
330
21
102
}
330
21
100
AcDbMlineStyle
  2
STANDARD
 70
     0
  3

 62
   256
 51
90.0
 52
90.0
 71
     2
 49
0.5
 62
   256
  6
BYLAYER
 49
-0.5
 62
   256
  6
BYLAYER
  0
ACDBPLACEHOLDER
  5
5
102
{ACAD_REACTORS
330
6
102
}
330
6
  0
DICTIONARYVAR
  5
B8
102
{ACAD_REACTORS
330
B6
102
}
330
B6
100
DictionaryVariables
280
     0
  1
1
  0
DICTIONARYVAR
  5
B7
102
{ACAD_REACTORS
330
B6
102
}
330
B6
100
DictionaryVariables
280
     0
  1
1
  0
ENDSEC
  0
EOF
